Fingerpicking

tabs metal

CHICAS
TABSMETAL
usr
Hola Anónimo
TabsMetal.org
Fingerpicking - Lunes, 30 de Noviembre de -0001

Fingerpicking

Lunes, 30 de Noviembre de -0001

 


Fingerpicking
Por Pablo Muñoz


Al igual que en la mayoría de las técnicas de guitarra, no existe una traducción equivalente al castellano que defina lo que es el fingerpicking. Basicamente es una técnica de guitarra en la cual se le asignan varias funciones a los dedos de la mano derecha, dandole un toque orquestral. Por ejemplo el pulgar hace los bajos y los dedos sobrantes la melodía. El dominio de esta técnica requiere de mucha habilidad y coordinación. Para aprender la misma hace falta muchisima paciencia y dedicación. Este estilo de tocar es caracteristico de los guitarristas clásicos y de country.
Starway To Heaven de Led Zeppelin fue el primer tema que aprendi a tocar con fingerpicking (la mayoría aprende con ese tema debido a que es muy simple y de facil comprensión). Aqui abajo esta la primera y más popular parte de este glorioso tema.





Am E5+/G# C/G D/F#



E||-----------5--7--------7--|--8--------8--2--------2 --|
B||--------5--------5--------|-----5-----------3---------|
G||-----5--------------5-----|--------5-----------2------|
D||--7-----------6-----------|--5-----------4------------|
A||--------------------------|----------------------------|
E||--------------------------|----------------------------|




FM7 G/BAm E+5/G#
--0-------------0--------|--------------------------|--------------7--------7---|
-----1-----1-------1--- -|--0--1--1----------------|-----------5-----5---------|
--------2-------------2--|--0--2--2------2---------|--------5-----------5------|
--3----------------------|---------------------------|-----7--------6-----------|
-------------------------|--2---0--0------0/-8--7--|--0------------------------|
-------------------------|---------------------------|---------------------------|




C/G D/F# FM7 G/BAm
--8--------8--2--------2--|--0-------------0---------|---------------------||
-----5-----------3---------|-----1-----1-------1-----|--0--1--1------------||
--------5-----------2------|--------2-------------2--|--0--2--2------------||
--5-----------4------------|--3----------------------|---------------------||
---------------------------|--------------------------|--2--0--0------------||
---------------------------|--------------------------|---------------------||



Bajar Archivo Midi




La siguiente tablatura es una pieza clasica de Beethoven arreglada para la guitarra. El tema se llama Ode to Joy que es la archifamosisima novena sinfonia de este genio. Tocarlo es una excelente forma de aprender fingerpicking, ademas es un bellisimo tema.



E||-------------------------------------|-------------------------------------|
B||-------------------------------------|-------------------------------------|
G||----0---0---0---0---0---0---0---0-|----0---0---0---0---0---0---0---0-|
D||------2--------2--------3--------3-|------2--------2-------3-------3----|
A||--3-------3-------3--------3-------|--3-------3-------3--------3--------|
E||-------------------------------------|-------------------------------------|

--0---0---1---3---3---1---0-------|---------------0---0-----------------|
--------------------------------3---|--1---1---3--------------3--3-------|
----0---0---0---0---0---0---0---0-|----0---0---0---0---0--------0---0-|
------2-------2--------0-------0---|------2--------2-------0--------0---|
--3-------3-------2-------2--------|--0-------0--------------------------|
------------------------------------|-------------------3--------3--------|

--0---0---1---3---3---1---0--------|---------------0---------------------|
------------------------------3------|--1---1---3-------3-----1--1-------|
----0---0---0---0---0---0----0---0-|----0---0---0---0---0--------0---0-|
------2--------2-------0--------0---|-------2-------2-------0--------2---|
--3-------3-------2-------2---------|--0-------0-----------------3-------|
--------------------------------------|------------------3-----------------|

-----------0--------------0-1-0---------|-------0-1-0---------------------|
--3---3--------1----3--------------1----|--3-------------3----1--3-------|
----0---0---0----0----0---------0----0-|-----0--------1---1--2--2--0----|
------0--------2--------------------2---|----------------------2--0--0----|
--2-------3---------2---------3---------|--2-------------------0----------|
-----------------------------------------|------------0------------2--3----|

--0-----0----1---3----3---1---0---------|--------------------0------------------||
-------------------------------------3----|--1----1-----3----------3-----1-1----||
-----0-----0---0----0---0---0---0-----0-|----0----0-------0---0----0-----0----||
--------2---------2--------0--------0----|-------2------------2--------0---2----||
--3--------------------2-------2---------|--0----------0--------------------3----||
--------------3---------------------------|-------------------------3-------------||




Bajar Archivo Midi



Es sabido que la técnica instrumental no debe ser nunca un fin, pero si un medio necesario por el cual se ira elevando el alumno en su condición de músico. El estudio serio de la guitarra exige por un lado el trabajo mental, que permite resolver los problemas con relación al instrumento, por otra parte el trabajo físico, es decir, el mecanismo ordenado de los dedos. La experiencia podrá demostrar que es más conveniente el estudio razonado y consciente, que pretender el dominio de la técnica por medio de movimientos defectuosos que darían como único resultado una lamentable pérdida de tiempo.



Todo ejercicio debe estudiarse MUY LENTAMENTE, y una vez dominado puede acelerarse, PERO NUNCA A UN TIEMPO QUE IMPIDA EL CONTROL DE LOS MOVIMIENTOS.



Cuando un dedo se contrae, los que están a su lado no deben contraerse también, sino por el contrario, deben permanecer aislados y en completo descanso. Los dedos deben sentirse completamente libres los unos de los otros, para responder con toda presteza a la intención del pensamiento, evitando toda ligazón o traba entre ellos. Esta transmisión del movimiento o contracción de un dedo al compañero inmediato, representa un entorpecimiento, influyendo por consecuencia en la nitidez del ataque y en la claridad general de la ejecución.



El descanso e inmovilidad de los dedos que no actúan es tan importante como el movimiento de los otros dedos. Es necesario trabajar las dos manos por separado, es decir, fijar la atención en cada una de ellas separadamente, con el objeto de permitir una mayor concentración en el estudio. Esto no quiere decir que se trabaje exclusivamente con una mano, pueden y deben trabajar juntas, lo importante es utilizar durante el estudio, todo el máximo de atención a una de las manos. Este es el motivo por el cual se utiliza en éstos ejercicios un simple acorde de séptima con el fin de concentrar toda la atención en la mano derecha.



 



Fuente: http://www.guitarraonline.com.ar



Publicado por: Pablo Mu?oz .
(Leido 15548 Veces)

+0 out of 0 like this.I LikeI Dislike

Comentarios de usuarios

Dejar un mensaje
usr
Todavía no estas identificado. Haz click aquí para identificarte.

Noticias Recientes

ÚLTIMOS COMENTARIOS

Disco Recomendado!

Sylosis - Monolith

BANDA DEL MES

img

Insaint

Este mes le toca a Insaint banda procedente de Colombia, y estos chicos nos traen un buen Heavy Metal que vale la pena hecharla una mirada!! Insaint Banda del mes en Tabsmetal.

Ver más bandas »

COMUNIDAD

Ver más actividad reciente
Logo fot