Curso de Guitarra Nivel Basico IX Arpegios

tabs metal

CHICAS
TABSMETAL
usr
Hola Anónimo
TabsMetal.org
Curso de Guitarra Nivel Basico IX Arpegios - Lunes, 30 de Noviembre de -0001

Curso de Guitarra Nivel Basico IX Arpegios

Lunes, 30 de Noviembre de -0001

 


Nivel Basico

9. ARPEGIOS



Los arpegios son una sucecion de notas que tocadas una por una forman un acorde, no tocamos todas simultaneamente.
Vamos a aprender a tocarlo tanto con la PUA y con la mano DERECHA!



No nos olvidemos que tenemos los dedos de la mano derecha tambien. Bueno empezemos



 



TECNICA ARPEGIOS MANO DERECHA



Los dedos de la mano derecha, se identifican de esta manera:



Pulgar: P
Indice: I
Medio: M
Anular: A
Menique: S



tomemos un acorde, EJ: LA Mayor



E--------------------------------------------------------------- > 1ra
B-------2------------------------------------------------------
G-------2------------------------------------------------------
D-------2------------------------------------------------------
A-------0------------------------------------------------------
E--------------------------------------------------------------- > 6ta



Esto seria un la mayor haciendo sonar todas las cuerdas simultaneamente, en el arpregio lo veremos de la seguiente manera



E--------------------------------------------------------------- > 1ra
B---------------2----------------------------------------------
G------------2------------------------------------------------
D----------2---------------------------------------------------
A-------0------------------------------------------------------
E--------------------------------------------------------------- > 6ta



Ahora te daras cuenta, que aqui las notas suenan en sucecion, bien.



Para las cuerdas mas Graves, SE USA EL PULGAR e INDICE
Para las cuerdas mas Agudas, SE USA EL INDICE, MEDIO, ANULAR, MENIQUE



Ahora veremos un ejemplo, Los arpregios se representan por las primeras letras de cada dedo.



ARPEGIO PIMA " Pulgar, Indice, Medio, Anular, S Menique " tocando el acorde E



E---------------------------------------------------------------
B---------------------------------------------------------------
G------------1------------------------------------------------- A tocamos con el anular
D---------2---------------------------------------------------- M Tocamos con el medio
A-------2------------------------------------------------------ I Tocamos con el indice
E-----0-------------------------------------------------------- P Tocamos con el pulgar



Lo aconsejable es que practiques PIMA, PIMIAMI, PAMI, e inventes tus propios arpregios intercalando acordes mayores, menores, cejillas



TECNICA ARPREGIOS PUA



Los arpregios con la pua suelen ser un poco lento y molesto cuando empezamos ya no es lo mismo que con los dedos, debes recordar cuando el arpregio sube vos tocas con la pua hacia abajo y cuando el arpregio baja tocas hacia arriba con la pua. Nunca debes usar arriba y abajo ya que te demorarias y es molesto.



 



E-----/\ /\ /\--\/-\/-\/------------------------------------------
B-----------------------------------------------------------------
G------------1---------------------------------------------------
D---------2-----2-----------------------------------------------
A-------2---------2---------------------------------------------
E-----0----------- -0-------------------------------------------



/\: Este signo significa que tenes que usar la pua en ese sentido osea abajo
\/: Este signo significa que tenes que usar la pua en sentido contrario arriba.



 



Demas queda decir que intercambien acordes practiquen a diario 15 a 20 tanto con la pua y con la mano derecha.



Publicado por: Leandro .
(Leido 18136 Veces)

+14 out of 15 like this.I LikeI Dislike

Comentarios de usuarios

Dejar un mensaje
usr
Todavía no estas identificado. Haz click aquí para identificarte.

Noticias Recientes

ÚLTIMOS COMENTARIOS

Disco Recomendado!

Sylosis - Monolith

BANDA DEL MES

img

Insaint

Este mes le toca a Insaint banda procedente de Colombia, y estos chicos nos traen un buen Heavy Metal que vale la pena hecharla una mirada!! Insaint Banda del mes en Tabsmetal.

Ver más bandas »

COMUNIDAD

Ver más actividad reciente
Logo fot