Curso de Guitarra Nivel Basico X LECTURA DE UN TABULADO/TABS

tabs metal

CHICAS
TABSMETAL
usr
Hola Anónimo
TabsMetal.org
Curso de Guitarra Nivel Basico X LECTURA DE UN TABULADO/TABS - Lunes, 30 de Noviembre de -0001

Curso de Guitarra Nivel Basico X LECTURA DE UN TABULADO/TABS

Lunes, 30 de Noviembre de -0001

 


Nivel Basico

10. LECTURA DE UN TABULADO/TABS



Llegamos a uno de los momentos mas esperados ya que aqui podras leer cualquier partitura tabulada para guitarra, muchas de ellas se encuentran en internet.



 



 



 



 



E----------------------------------------------------------------- > Hasta la 1ra mas aguda
B----------------------------------------------------------------- >
G----------------------------------------------------------------- >
D-----2---------------------------------------------------------- >
A-----2---------------------------------------------------------- >
E-----0---------------------------------------------------------- > Estas son las cuerdas desde la 6ta



Las letras que estan al principio identifican el nombre de las cuerdas y como estan afinadas, en este caso E A D G B E podria estar Eb Ab Db Gb Bb Eb pero ya estro tema.



como veras hay numeros bueno los numeros dicen los trastes que deberemos apoyar los dedos en este caso aremos un E5, como ves no es como un arpregio es como un acorde se toca todo simultaneo.



Los acordes tambien se leen de esta manera



 



En las tablaturas encontraran muchos signos como /, h, p, ~,.no se preocupen lo explicare mas adelante por ahora, practiquen con estas canciones que les paso.



 



ROBO UN AUTO : Hermetica



  ||---------------|--------------|--------------|--------------|---------------|
  ||---------------|--------------|--------------|--------------|---------------|
  ||---9--9--9--9--|--------------|--7--7--7--7--|--------------|---------------|
  ||---9--9--9--9--|--2--4--5--6--|--7--7--7--7--|--7--6--4--6--|--4--2---------|
  ||---7--7--7--7--|--0--2--3--4--|--5--5--5--5--|--5--4--2--4--|--2--0--6---2--|
  ||---------------|--------------|--------------|--------------|----------0----|
  
||--------------|--------------|--------------|--------------|--------------| ||--------------|--------------|--------------|--------------|--------------| ||--------------|--7--7--7--7--|--------------|--------------|--------------| ||--2--4--5--6--|--7--7--7--7--|--7--6--4--6--|--4--2--------|--2--4--5--6--| ||--0--2--3--4--|--5--5--5--5--|--5--4--2--4--|--2--0--6--2--|--0--2--3--4--| ||--------------|--------------|--------------|--------4--0--|--------------|



||--------------|---------------|| ||--------------|---------------|| ||--7--7--7--7--|---------------|| ||--7--7--7--7--|--7--6--4--6---|| ||--5--5--5--5--|--5--4--2--4---|| ||--------------|---------------||



Te gusto? suena lindo no?



Asi son como se escriben los tabs, como veras son todos notas y no hay ningun punteo.



 



ALMAFUERTE: Sentir Indiano INTRO



  e|----------------------------------------------------------------------|
  B|---------------------------------------------------------------------| 
  G|----7--7--------------------------------------------------------------|
  D|----7--7--------3-----------------------------------------------------|
  A|----5--5--3--5-----5--------3--3-----3--------------------------------|
  E|----------------------3--5--------5-----5--3--1-----------------------| 



e|----------------------------------------------------------------------| B|----------------------------------------------------------------------| G|----7--------------7--------------------7-----------------------------| D|----7--------3-----7--------3-----3--5--7--------3--------------------| A|----5--3--5-----5--5--3--5-----5--------5--3--5-----5--5--3-----------| E|-------------------------------------------------------------5--3--1--|



Aca vemos que usa el acorde D5 y puntea sobre G y vuelve a D5



 



DEEP Purple Smoke and the water parte del INTRO.



  |-------------------|-------------------|--------------------|----------------|
  |-------------------|-------------------|--------------------|----------------
  |:------------------|-------------------|--------------------|----------------:
  :-5---8---10------5-|---8---11--10------|--5---8---10-----8--|---5------------:
  |-5---8---10------5-|---8---11--10------|--5---8---10-----8--|---5------------|
  |-------------------|-------------------|--------------------|---3------------|



Busquen en altavista.com tablaturas, con la palabra clave tabs/tablaturas o partituras. y experimenten ustedes mismos.



Desde ya te digo no te preocupes por los signos, son tecnicas y las explicare mas adelante.



Publicado por: Leandro .
(Leido 7735 Veces)

+14 out of 15 like this.I LikeI Dislike

Comentarios de usuarios

Dejar un mensaje
usr
Todavía no estas identificado. Haz click aquí para identificarte.

Noticias Recientes

ÚLTIMOS COMENTARIOS

Disco Recomendado!

Sylosis - Monolith

BANDA DEL MES

img

Insaint

Este mes le toca a Insaint banda procedente de Colombia, y estos chicos nos traen un buen Heavy Metal que vale la pena hecharla una mirada!! Insaint Banda del mes en Tabsmetal.

Ver más bandas »

COMUNIDAD

Ver más actividad reciente
Logo fot