Curso de Guitarra Nivel Medio III Escalas Pentatonicas

tabs metal

CHICAS
TABSMETAL
usr
Hola Anónimo
TabsMetal.org
Curso de Guitarra Nivel Medio III Escalas Pentatonicas - Miércoles, 30 de Noviembre de -0001

Curso de Guitarra Nivel Medio III Escalas Pentatonicas

Miércoles, 30 de Noviembre de -0001

 


3. Escalas pentatonicas



Las escalas pentatonicas son muy usadas en el rock, blues y el heavy metal, la escala esta enfocada en 5 posiciones.



¿Para que son las escalas?
bueno los punteos de X estilo siempre estan basados en una o varias escalas ya sea pentatonica o no, intercambiando escalas, tecnicas e improvisacion
de todo eso sale esos punteos que pronto vas a tocar vos tambien lo prometo.



Primera Posición A

  --------------------5-8-5--------------------
  ----------------5-8-------8-5----------------
  ------------5-7---------------7-5------------
  --------5-7-----------------------7-5--------
  ----5-7-------------------------------7-5----
  5-8---------------------------------------8-5



Segunda Posición C

  ------------------------8-10-8------------------------
  -------------------8-10--------10-8-------------------
  ---------------7-9------------------9-7---------------
  ----------7-10--------------------------10-7----------
  -----7-10------------------------------------10-7-----
  8-10-----------------------------------------------10-8



Tercera Posición D

  -----------------------------10-12-10-----------------------------
  -----------------------10-13----------13-10-----------------------
  ------------------9-12----------------------12-9------------------
  ------------10-12--------------------------------12-10------------
  ------10-12--------------------------------------------12-10------
  10-12--------------------------------------------------------12-10



Cuarta Posición E

  ------------------------------12-15-12-------------------------------
  ------------------------13-15----------15-13-------------------------
  ------------------12-14----------------------14-12-------------------
  ------------12-14----------------------------------14-12-------------
  ------12-15----------------------------------------------15-12-------
  12-15----------------------------------------------------------15-12-

Quinta Posición G

  ------------------------------15-17-15-------------------------------
  ------------------------15-17----------17-15-------------------------
  ------------------14-17----------------------17-14-------------------
  ------------14-17----------------------------------17-14-------------
  ------15-17----------------------------------------------17-15-------
  15-17----------------------------------------------------------17-15-

 



Este es un Ejercicio Pentatonica 1 que aparecio en Guitar Player y lo transcribi



Este es un ejercicio basado en la posicion de la no lo hagas RAPIDO, no vale al pena solo procura hacerlo bien
Esto sirve para dominar bien las escalas pentantonicas



  ----------------------------------------------------5---5-8-5---5-
  ----------------------------------------5---5-8-5-8---8-------8---
  ----------------------------5---5-7-5-7---7-----------------------
  ----------------5---5-7-5-7---7-----------------------------------
  ----5---5-7-5-7---7-----------------------------------------------
  5-8---8-----------------------------------------------------------

  -----------------------------------------------------
  8-5-8-5---5------------------------------------------
  --------7---7-5-7-5---5------------------------------
  --------------------7---7-5-7-5---5------------------
  --------------------------------7---7-5-7-5---5------
  --------------------------------------------8---8-5-5



Ejercicio Pentatonica 2
Este es un ejercicio basado en la posicion de la



  ----------------------------------------------------5-----8-5-----
  ----------------------------------------5-----8-5-----8-5-----8-5-
  ----------------------------5-----7-5-----7-5-----7---------------
  ----------------5-----7-5-----7-5-----7---------------------------
  ----5-----7-5-----7-5-----7---------------------------------------
  5-8---8-5-----8---------------------------------------------------
  --5------------------------------------------------
  8-----5-8-----5------------------------------------
  ----7-----5-7-----5-7-----5------------------------
  ----------------7-----5-7-----5-7-----5------------
  ----------------------------7-----5-7-----5-7-----5
  ----------------------------------------8-----5-8--- 



Practica estas escalas en forma asendente y desendente, procura hacerlo detenidamente,
luego le vas aumentando la velocidad e intercalando una con otra.
Practicalas hasta que te salgan solas sin pesar y sin mirar como si la mano tocaria sola



O tambien puedes aprender las escalas pentatonicas desde esta foto:





Publicado por: Leandro .
(Leido 55145 Veces)

+14 out of 14 like this.I LikeI Dislike

Comentarios de usuarios

Dejar un mensaje
usr
Todavía no estas identificado. Haz click aquí para identificarte.

Noticias Recientes

ÚLTIMOS COMENTARIOS

Disco Recomendado!

Sylosis - Monolith

BANDA DEL MES

img

Insaint

Este mes le toca a Insaint banda procedente de Colombia, y estos chicos nos traen un buen Heavy Metal que vale la pena hecharla una mirada!! Insaint Banda del mes en Tabsmetal.

Ver más bandas »

COMUNIDAD

Ver más actividad reciente
Logo fot