Ejercicios Avanzados

tabs metal

CHICAS
TABSMETAL
usr
Hola Anónimo
TabsMetal.org
Ejercicios Avanzados - Lunes, 30 de Noviembre de -0001

Ejercicios Avanzados

Lunes, 30 de Noviembre de -0001

 


Ejercicios Avanzados
Por Felipe Lamilla GH

 



*Requerimientos (Los requerimientos son solo recomendaciones para que los ejercicios en general les resulten más faciles y mejores):

-Guitarra: Afinada en MI o E, utilizando uñeta, 24 espacios, puente flotante (opcional), minimo dos capsulas y pedalera o pedal de efectos o simplemente la distorción del amplificador.



-Persona: Tener conocimientos un poco más avanzados respecto a, tecnicas como: Pull Off, Hammer, Sweet picking, Tapping, Palm Mute, Vibrato, Armonicos artificiales, etc. Abilidades como: saber usar los 4 dedos de la mano izquierda y saber tocar bien con la uñeta...y tener muchas ganas de aprender más.



=======================
=TABLATURE EXPLANATION=
=======================



* = Artificial Harmonic



pm..| = Palm mute



h = hammer on



p = pull off



/ = slide up



\ = slide down



~ = Vibrato



b() = Bend



x\ = Pick Slide



Ejercicio 1 (Blues)

E|------------------------------------3-6~--6h-3---6h-3---------------------------|
B|-------------------------------3-6--------------6-------6-3----6h-3-------------|
G|------------------------3-5-6--------------------------------5-------5-3-5h-3---|
D|-------------------3-5---------------------------------------------------------5--|
A|------------3-4-5-----------------------------------------------------------------|
E|-12\--3~-6------------------------------------------------------------------------|



E|------------------|
B|------------------|
G|------------------|
D|-3----------------|
A|----5-4-3--------|
E|-----------6-3~--|



Ejercicio2 (Blues)

E|--------------------------------------------------------------------------------------|
B|-15-12-15~~-12---------15-12------12--------------------------------------------|
G|-------------------14-12~~-------14-----12\-9-7-9~-------------------------7-8--|
D|-------------------------------------------------------------------------7-8-9-------|
A|------------------------------------------------------------------6-7-8--------------|
E|---------------------------------------------------------3/5-6-7---------------------|



E|------------------10-11-12-13-12-11-10------------------|
B|--------10-11-12-------------------------12-11-10--------|
G|-9--12----------------------------------------------12~~--|
D|-------------------------------------------------------------|
A|-------------------------------------------------------------|
E|--------------------------------------------------------------|



Ejercicio 3 (Arpegio blues)

E|-----------12h-14h-12--------------12h-14h-16h-16p-14p-12p-12h-14h-16h---|
B|--------14-------------14--------14-----------------------------------------------|
G|-13-16--------------------16-16--------------------------------------------------|
D|------------------------------------------------------------------------------------|
A|-------------------------------------------------------------------------------------|
E|-------------------------------------------------------------------------------------|



E|-19t-16p-14p-12p-19t-16p-14p-12p-------------|
B|--------------------------------------14-----------|
G|----------------------------------------16-13~~--|
D|---------------------------------------------------|
A|---------------------------------------------------|
E|----------------------------------------------------|



Ejercicio 4 (Blues Rapido)

E|----------------------7-9~-9~--------------------------------9-12~-12~--|
B|------------------7-9------------------------------------9-12-------------|
G|--------------6-9----------------------------------9-11-------------------|
D|----------6-9-----------------------------9-10-11------------------------|
A|-----7-9----------------------------9-12----------------------------------|
E|-7-9--------------------------9-12----------------------------------------|



E|-12-11-9-12-11-9-12-11-9--14-12-11-14-12-11-14-12-11--16-14-12-16-14-12--|
B|----------------------------------------------------------------------------------------|
G|----------------------------------------------------------------------------------------|
D|----------------------------------------------------------------------------------------|
A|----------------------------------------------------------------------------------------|
E|----------------------------------------------------------------------------------------|



E|-16-14-12/-19*~~~--|
B|-----------------------|
G|-----------------------|
D|-----------------------|
A|-----------------------|
E|-----------------------|



Ejercicio 5 (Heavy metal Mi menor o Em)

E|---------------------------------------------------------12-14-15/-19-19~~-----|
B|------------------------------------11-12-14-12-14-15--------------------------|
G|-----------------------------11-12------------------------------------------------|
D|------------------11-12-14-------------------------------------------------------|
A|-----------13-14------------------------------------------------------------------|
E|-12-14-15-------------------------------------------------------------------------|



Ejercicio 6 (Heavy metal Hammer y pull off)

E|-----------------------------------------------------8h-10h-12h-15t-12p-10p-|
B|-----------------------------------------8h-10h-12h---------------------------|
G|-------------------------------5h-6h-9h----------------------------------------|
D|---------------------5h-6h-9h--------------------------------------------------|
A|-----------3h-5h-7h------------------------------------------------------------|
E|-3h-5h-7h----------------------------------------------------------------------|



E|-8h--8h-10h-12h-17t-12p-10p-18h--8h-10h-12h-15t-12p-10p-8p~-------|
B|-----------------------------------------------------------------------------|
G|-----------------------------------------------------------------------------|
D|-----------------------------------------------------------------------------|
A|-----------------------------------------------------------------------------|
E|-----------------------------------------------------------------------------|



Ejercicio 7 (Heavy metal pull off)

E|-8p-7p-5p----------------------------------------|
B|------------8p-7p-5p--7p-5p---------------------|
G|-------------------------------8-5p-4p-----------|
D|----------------------------------------5p-4p----|
A|-----------------------------------------------7--|
E|---------------------------------------------------|



Ejercicio 8 (Yngwie Malmsteen arpegios en La menor o Am, Ahora veremos ejercicios por estilos de guitarristas)



E|------------------12-17-20t-17-12-----------------|
B|---------------13-------------------13--------------|
G|------------14-------------------------14-----------|
D|-----10-14-------------------------------14-10-----|
A|-12---------------------------------------------12--|
E|------------------------------------------------------|



Ejercicio 9 (Yngwie)

E|-12-8---------8-12--10-7--------7-10--13-10----------10-13--12-8-------|
B|------10---10------------9----9----------------12----12-------------10----|
G|---------9------------------10----------------------13-------------------9--|
D|------------------------------------------------------------------------------|
A|------------------------------------------------------------------------------|
E|------------------------------------------------------------------------------|



E|----8-12--20-17-----------17-20--19-16-----------16-19~~-\12h-8-----13h--|
B|-10--------------17-----17---------------17-----17-------------------10-------|
G|---------------------17-----------------------16---------------------------------|
D|----------------------------------------------------------------------------------|
A|----------------------------------------------------------------------------------|
E|-----------------------------------------------------------------------------------|



E|-10------15h-12------17h-13----------------|
B|------12----------13-----------15~----------|
G|----------------------------------------------|
D|-------------------------------------7---7~--|
A|-------------------------------------7---7~--|
E|-------------------------------------5---5~--|



Ejercicio 10 (Yngwie)

E|-13-12-13-10-13-12-13-8-12-10-12-7-10-8-10-5~~--17-15-17-13-17-15-17-12|
B|---------------------------------------------------------------------------------------|
G|---------------------------------------------------------------------------------------|
D|---------------------------------------------------------------------------------------|
A|---------------------------------------------------------------------------------------|
E|---------------------------------------------------------------------------------------|



E|-17-15-17-------|
B|-----------15~~-|
G|-----------------|
D|-----------------|
A|-----------------|
E|------------------|



Ejercicio 11 (Yngwie Extracto del tema "Trilogy Suite Opus 5")

E|---------------------------------------------------------------------------------------|
B|---------------------------------------------------------------------------------------|
G|-0-10h-12h-13h-0-7h-8h-10h-0-8h-10h-12h-0-5h-7h-8h-0-8p-7p-5p-4p-4--------|
D|---------------------------------------------------------------------------------------|
A|---------------------------------------------------------------------------------------|
E|---------------------------------------------------------------------------------------|



E|-/16-15-13------------------------------------------------------------------------|
B|------------16-15-13-12-13-15-13-12-------------------------------------------|
G|-----------------------------------------13-12-10--------------------------------|
D|---------------------------------------------------13-12-10-12-13---------------|
A|---------------------------------------------------------------------10~----------|
E|------------------------------------------------------------------------------------|



E|-12p-8-----13p-10-----10p-7----12p-8-----8p-5---8p-5---7p-5----5-2-----|
B|---------10---------12---------9---------10-------6-------5-------4------4---|
G|--------------------------------------------------------------------------------|
D|--------------------------------------------------------------------------------|
A|--------------------------------------------------------------------------------|
E|--------------------------------------------------------------------------------|



E|-----2-5--8-5--------5-8--11-8----------8-11--14-11----------11-14/-17~|
B|---4----------9----9-----------10----10--------------13----13--------------|
G|-5--------------10----------------11---------------------14-----------------|
D|-------------------------------------------------------------------------------|
A|-------------------------------------------------------------------------------|
E|-------------------------------------------------------------------------------|



Ejercicio 12 (Ejercicios basados en el estilo de Paul Gilbert)

E|-15-14-12------------------12-14-15-14-12--------------------12-14-15-14-12--|
B|--------------------------------------------------------------------------------------|
G|-----------16-14-12-14-16---------------------------------------------------------|
D|-----------------------------------------------17-16-14-16-17---------------------|
A|-------------------------------------------------------------------------------------|
E|--------------------------------------------------------------------------------------|



E|-------------------12-14-15-14-12---------------------12-14~~--|
B|---------------------------------------------------------------------|
G|--------------------------------------17-16-14-16-17-------------|
D|--------------------------------------------------------------------|
A|--------------------------------------------------------------------|
E|-15-14-12-14-15--------------------------------------------------|



Ejercicio 13 (Gilbert)

E|------------------12-15h-17h-20t-22t-17p-15p-12-----------------|
B|----------------------------------------------------------------------|
G|----12h-14h-17h------------------------------------17p-14p-12p--|
D|---------------------------------------------------------------------|
A|-15------------------------------------------------------------------|
E|---------------------------------------------------------------------|



Ejercicio 14 (Gilbert)

E|-----------------------0----------------------12h-15h-19~--|
B|---------------------0----------------------------------------|
G|--------------4----0------12-16h----12-16h----------------|
D|---------2-5----2----------------14-------------------------|
A|------2------------------------------------------------------|
E|-0-3---------------------------------------------------------|



Ejercicio 15 (Ejercicios basados en el estilo de Steve Vai, *Vai utiliza un sin numero de tecnicas juntas como pull off, slide up y down etc. traté de transcribir el ejercicio lo más claramente posible, el ejercicio esta en la escala pentatonica de MI o E, con notas del modo dorico de C# y F#)

E|------------------------------------------------------------------------------|
B|----b(15)-(17)-----(17)\15p-12p--14--b(14)-(15)----(15)\14p-12p--------|
G|---------------------------------------------------------------------14p-12p|
D|------------------------------------------------------------------------------|
A|------------------------------------------------------------------------------|
E|-0----------------------------------------------------------------------------|




E|----------------14h-15p-14p-12p---------------------------------|
B|--------------------------------------------------------------------|
G|----12~~~------------------------15-14-12-14\9p-7---7\2--0---|
D|-14----------------------------------------------------9---------|
A|------------------------------------------------------------------|
E|-------------------------------------------------------------------|




E|------------------14\10p-7p---------|
B|---------------12------------8-------|
G|-----------9/9-----------------9-----|
D|-------7/7-----------------------7\5-|
A|---5/5-------------------------------|
E|-3-----------------------------------|



Ejercicio 16 (Vai)

E|--------------------------------------------------------|
B|-10 b(12)\-10-----10---10p--8p---8\5-----8----------|
G|----------------------------------------7/9-----(Base)-|
D|--------------------------------------------------------|
A|--------------------------------------------------------|
E|--------------------------------------------------------|



*Steve Vai utiliza distintos tipos de armonización para dar un sonido totalmente diferente al anterior, por ello toca la base con estos dos tipos de acompañamientos que dan diferentes resultados, ¡chequealos!



Armonización 1 (MI o E Dorian/Aeolian)

E|-0~~~~~~~0-------0----------3--|
B|-0~~~~~~~0-------0----------3--|
G|-0~~~~~~~0-------2----------0--|
D|-4~~~~~~~4-------3----------2--|
A|-2~~~~~~~2-------3----------3--|
E|-0~~~~~~~0-------1--------------|



Armonización 2 (GM o Sol Mayor/ Lydian)

E|-2--------0----------------------|
B|-3--------0----------------------|
G|-2--------2----------------------|
D|-0--------2-------12--------10-|
A|----------0-------10---------8--|
E|-3-----------------8----------6--|



Ejercicio 16 (Extracto sacado del solo de "For the love of God")

E|-17-17~~-17p-14------------------------------------------19-17-15----------|
B|-------------------15------------------------------------------------19-17-15-|
G|---------------------14\11-12h-11---------------------------------------------|
D|------------------------------------14-12--------------------------------------|
A|-----------------------------------------14-12\-9p-7p-9h----------------------|
E|---------------------------------------------------------------------------------|



E|------------------------|
B|-17-19-15~~-19\7~~-|
G|-----------------------|
D|-----------------------|
A|-----------------------|
E|------------------------|



Ejercicio 17 (Estilo de Vinnie Moore)



 


E|-14-10----------------10-14-17t-14-10----------10-14-19t-14-10------------|
B|-------12----------12-------------------12----12-------------------12---------|
G|----------11----11-------------------------11-------------------------11--11~|
D|-------------12----------------------------------------------------------12~---|
A|---------------------------------------------------------------------------------|
E|---------------------------------------------------------------------------------|



Ejercicio 18 (Moore)

E|-5h-7h-8h-10t-8p-7p-5p-5h-7h-8h-12t-8p-7p-5p-5h-7h-8h-10t--3h-5h-7h-8t-|
B|----------------------------------------------------------------------------------|
G|----------------------------------------------------------------------------------|
D|----------------------------------------------------------------------------------|
A|----------------------------------------------------------------------------------|
E|----------------------------------------------------------------------------------|




*Tambien es necesario que sepas que para tocar algunos ejercicios rapidos como arpegios, escalas, etc. necesitas tener la capsula de arriba activa para que suene más suave y en algunas ocasiones, dependiendo del sonido de tu guitarra, necesitaras bajarle ya sea el tono ,a la capsula que corresponda, como el volumen.



 



Fuente: http://www.guitarraonline.com.ar
Autor: Felipe Lamilla G-H
e-mail: felipe_lamilla@hotmail.com



Publicado por: Felipe Lamilla GH .
(Leido 36092 Veces)

+0 out of 0 like this.I LikeI Dislike

Comentarios de usuarios

usr
Martes, 30 Julio 02:19 amDamihant

No seria mala idea que estos ejercicios tambien los escribieses en un archivo de guitar pro, pues no tengo la menor idea de los tiempos de cada nota, y realmente, hacerlos todos a tiempo de lo que sea suena bien feo.

usr
Yo
Dejar un mensaje
usr
Todavía no estas identificado. Haz click aquí para identificarte.

Noticias Recientes

ÚLTIMOS COMENTARIOS

Disco Recomendado!

Sylosis - Monolith

BANDA DEL MES

img

Insaint

Este mes le toca a Insaint banda procedente de Colombia, y estos chicos nos traen un buen Heavy Metal que vale la pena hecharla una mirada!! Insaint Banda del mes en Tabsmetal.

Ver más bandas »

COMUNIDAD

Ver más actividad reciente
Logo fot